ISO-10303-21;
HEADER;
FILE_DESCRIPTION (( 'STEP AP203' ),
    '1' );
FILE_NAME ('Q-OZHWP-R2-10-2020-M.STEP',
    '2020-12-22T09:11:08',
    ( '' ),
    ( '' ),
    'SwSTEP 2.0',
    'SolidWorks 2020',
    '' );
FILE_SCHEMA (( 'CONFIG_CONTROL_DESIGN' ));
ENDSEC;

DATA;
#1 = CARTESIAN_POINT ( 'NONE',  ( -1.250000000000000222, 0.000000000000000000, 0.000000000000000000 ) ) ;
#2 = EDGE_LOOP ( 'NONE', ( #208, #167, #211, #146 ) ) ;
#3 = CARTESIAN_POINT ( 'NONE',  ( 3.000000000000000000, 0.000000000000000000, 12.69999999999999929 ) ) ;
#4 = ORIENTED_EDGE ( 'NONE', *, *, #185, .T. ) ;
#5 = VECTOR ( 'NONE', #312, 1000.000000000000000 ) ;
#6 = DIRECTION ( 'NONE',  ( -1.000000000000000000, -0.000000000000000000, -0.000000000000000000 ) ) ;
#7 = AXIS2_PLACEMENT_3D ( 'NONE', #327, #226, #98 ) ;
#8 = VERTEX_POINT ( 'NONE', #323 ) ;
#9 = DIRECTION ( 'NONE',  ( -0.000000000000000000, 0.000000000000000000, 1.000000000000000000 ) ) ;
#10 = CARTESIAN_POINT ( 'NONE',  ( -3.000000000000000000, 0.000000000000000000, 0.000000000000000000 ) ) ;
#11 = ORIENTED_EDGE ( 'NONE', *, *, #180, .F. ) ;
#12 = PRODUCT_DEFINITION_FORMATION_WITH_SPECIFIED_SOURCE ( 'ANY', '', #90, .NOT_KNOWN. ) ;
#13 = ORIENTED_EDGE ( 'NONE', *, *, #46, .F. ) ;
#14 = APPLICATION_CONTEXT ( 'configuration controlled 3d designs of mechanical parts and assemblies' ) ;
#15 = CARTESIAN_POINT ( 'NONE',  ( -1.614212418857619014, 0.000000000000000000, 0.000000000000000000 ) ) ;
#16 = DIRECTION ( 'NONE',  ( -1.000000000000000000, -0.000000000000000000, -0.000000000000000000 ) ) ;
#17 = PERSON ( 'UNSPECIFIED', 'UNSPECIFIED', 'UNSPECIFIED', ('UNSPECIFIED'), ('UNSPECIFIED'), ('UNSPECIFIED') ) ;
#18 = DIRECTION ( 'NONE',  ( 0.000000000000000000, 0.000000000000000000, 1.000000000000000000 ) ) ;
#19 = APPROVAL_DATE_TIME ( #247, #80 ) ;
#20 = ADVANCED_FACE ( 'NONE', ( #219 ), #325, .F. ) ;
#21 = PLANE ( 'NONE',  #73 ) ;
#22 = DATE_AND_TIME ( #99, #89 ) ;
#23 = EDGE_CURVE ( 'NONE', #310, #292, #260, .T. ) ;
#24 = CALENDAR_DATE ( 2020, 22, 12 ) ;
#25 = FACE_OUTER_BOUND ( 'NONE', #297, .T. ) ;
#26 = DATE_AND_TIME ( #97, #263 ) ;
#27 = FACE_OUTER_BOUND ( 'NONE', #230, .T. ) ;
#28 = DIRECTION ( 'NONE',  ( -1.000000000000000000, 0.000000000000000000, -0.000000000000000000 ) ) ;
#29 = CIRCLE ( 'NONE', #259, 5.000000000000000000 ) ;
#30 = FACE_OUTER_BOUND ( 'NONE', #36, .T. ) ;
#31 = VERTEX_POINT ( 'NONE', #63 ) ;
#32 = ORIENTED_EDGE ( 'NONE', *, *, #320, .F. ) ;
#33 = CC_DESIGN_APPROVAL ( #80, ( #67 ) ) ;
#34 = ADVANCED_FACE ( 'NONE', ( #151 ), #153, .F. ) ;
#35 = CARTESIAN_POINT ( 'NONE',  ( -1.614212418857619014, 6.123233995736767268E-16, -5.000000000000000888 ) ) ;
#36 = EDGE_LOOP ( 'NONE', ( #287, #191, #148, #268 ) ) ;
#37 = ORIENTED_EDGE ( 'NONE', *, *, #290, .F. ) ;
#38 = CIRCLE ( 'NONE', #281, 5.000000000000001776 ) ;
#39 = ORIENTED_EDGE ( 'NONE', *, *, #126, .T. ) ;
#40 = FACE_OUTER_BOUND ( 'NONE', #166, .T. ) ;
#41 = CARTESIAN_POINT ( 'NONE',  ( 3.000000000000000000, 0.000000000000000000, 0.000000000000000000 ) ) ;
#42 = DIRECTION ( 'NONE',  ( -1.000000000000000000, -0.000000000000000000, -0.000000000000000000 ) ) ;
#43 = APPROVAL_STATUS ( 'not_yet_approved' ) ;
#44 = DIRECTION ( 'NONE',  ( 0.000000000000000000, 0.000000000000000000, 1.000000000000000000 ) ) ;
#45 = DATE_TIME_ROLE ( 'creation_date' ) ;
#46 = EDGE_CURVE ( 'NONE', #189, #218, #152, .T. ) ;
#47 = APPROVAL_ROLE ( '' ) ;
#48 = DIRECTION ( 'NONE',  ( 0.000000000000000000, 0.000000000000000000, 1.000000000000000000 ) ) ;
#49 = AXIS2_PLACEMENT_3D ( 'NONE', #237, #6, #109 ) ;
#50 = PERSON_AND_ORGANIZATION ( #17, #62 ) ;
#51 = CIRCLE ( 'NONE', #217, 5.000000000000000000 ) ;
#52 = CARTESIAN_POINT ( 'NONE',  ( -3.000000000000000000, 0.000000000000000000, 12.69999999999999929 ) ) ;
#53 = FACE_OUTER_BOUND ( 'NONE', #215, .T. ) ;
#54 = LINE ( 'NONE', #55, #70 ) ;
#55 = CARTESIAN_POINT ( 'NONE',  ( -1.614212418857619014, 0.000000000000000000, 5.000000000000000888 ) ) ;
#56 = ORIENTED_EDGE ( 'NONE', *, *, #23, .T. ) ;
#57 = DIRECTION ( 'NONE',  ( 0.000000000000000000, 0.000000000000000000, 1.000000000000000000 ) ) ;
#58 = VECTOR ( 'NONE', #322, 1000.000000000000000 ) ;
#59 = EDGE_CURVE ( 'NONE', #238, #257, #51, .T. ) ;
#60 = EDGE_LOOP ( 'NONE', ( #192, #39 ) ) ;
#61 = CARTESIAN_POINT ( 'NONE',  ( 1.250000000000000222, 5.000000000000000000, 0.000000000000000000 ) ) ;
#62 = ORGANIZATION ( 'UNSPECIFIED', 'UNSPECIFIED', '' ) ;
#63 = CARTESIAN_POINT ( 'NONE',  ( -1.250000000000000222, 0.000000000000000000, 5.000000000000000888 ) ) ;
#64 = PERSON_AND_ORGANIZATION_ROLE ( 'classification_officer' ) ;
#65 = EDGE_CURVE ( 'NONE', #292, #310, #271, .T. ) ;
#66 = CARTESIAN_POINT ( 'NONE',  ( 1.250000000000000444, 0.000000000000000000, 0.000000000000000000 ) ) ;
#67 = PRODUCT_DEFINITION ( 'UNKNOWN', '', #12, #69 ) ;
#68 = PERSON_AND_ORGANIZATION ( #17, #62 ) ;
#69 = DESIGN_CONTEXT ( 'detailed design', #14, 'design' ) ;
#70 = VECTOR ( 'NONE', #313, 1000.000000000000000 ) ;
#71 = DIRECTION ( 'NONE',  ( -1.000000000000000000, -0.000000000000000000, -0.000000000000000000 ) ) ;
#72 = PERSON_AND_ORGANIZATION ( #17, #62 ) ;
#73 = AXIS2_PLACEMENT_3D ( 'NONE', #124, #223, #96 ) ;
#74 = LINE ( 'NONE', #176, #171 ) ;
#75 = APPROVAL_STATUS ( 'not_yet_approved' ) ;
#76 = DIRECTION ( 'NONE',  ( 0.000000000000000000, 0.000000000000000000, -1.000000000000000000 ) ) ;
#77 = CARTESIAN_POINT ( 'NONE',  ( 1.250000000000000444, 6.123233995736766282E-16, -5.000000000000000000 ) ) ;
#78 = SECURITY_CLASSIFICATION ( '', '', #330 ) ;
#79 = EDGE_CURVE ( 'NONE', #189, #265, #74, .T. ) ;
#80 = APPROVAL ( #43, 'UNSPECIFIED' ) ;
#81 = DIRECTION ( 'NONE',  ( 1.000000000000000000, 0.000000000000000000, 0.000000000000000000 ) ) ;
#82 = ADVANCED_FACE ( 'NONE', ( #175, #250 ), #21, .F. ) ;
#83 = ORIENTED_EDGE ( 'NONE', *, *, #275, .F. ) ;
#84 = AXIS2_PLACEMENT_3D ( 'NONE', #1, #261, #254 ) ;
#85 = EDGE_CURVE ( 'NONE', #218, #168, #202, .T. ) ;
#86 =( NAMED_UNIT ( * ) PLANE_ANGLE_UNIT ( ) SI_UNIT ( $, .RADIAN. ) );
#87 = ORIENTED_EDGE ( 'NONE', *, *, #180, .T. ) ;
#88 = ORIENTED_EDGE ( 'NONE', *, *, #92, .T. ) ;
#89 = LOCAL_TIME ( 17, 11, 8.000000000000000000, #197 ) ;
#90 = PRODUCT ( 'Q-OZHWP-R2-10-2020-M', 'Q-OZHWP-R2-10-2020-M', '', ( #242 ) ) ;
#91 = ORIENTED_EDGE ( 'NONE', *, *, #253, .F. ) ;
#92 = EDGE_CURVE ( 'NONE', #31, #113, #316, .T. ) ;
#93 = DIRECTION ( 'NONE',  ( 0.000000000000000000, 0.000000000000000000, 1.000000000000000000 ) ) ;
#94 = CARTESIAN_POINT ( 'NONE',  ( -3.000000000000000000, 0.000000000000000000, 0.000000000000000000 ) ) ;
#95 = PERSON_AND_ORGANIZATION_ROLE ( 'design_owner' ) ;
#96 = DIRECTION ( 'NONE',  ( 0.000000000000000000, 0.000000000000000000, -1.000000000000000000 ) ) ;
#97 = CALENDAR_DATE ( 2020, 22, 12 ) ;
#98 = DIRECTION ( 'NONE',  ( 0.000000000000000000, 0.000000000000000000, -1.000000000000000000 ) ) ;
#99 = CALENDAR_DATE ( 2020, 22, 12 ) ;
#100 = LINE ( 'NONE', #203, #5 ) ;
#101 = CARTESIAN_POINT ( 'NONE',  ( 1.250000000000000444, 0.000000000000000000, 0.000000000000000000 ) ) ;
#102 = CIRCLE ( 'NONE', #143, 12.69999999999999929 ) ;
#103 = ORIENTED_EDGE ( 'NONE', *, *, #182, .T. ) ;
#104 = CARTESIAN_POINT ( 'NONE',  ( -1.614212418857619014, 0.000000000000000000, 0.000000000000000000 ) ) ;
#105 = CARTESIAN_POINT ( 'NONE',  ( 3.000000000000000000, 1.555301434917138433E-15, -12.69999999999999929 ) ) ;
#106 = ORIENTED_EDGE ( 'NONE', *, *, #170, .T. ) ;
#107 = PLANE ( 'NONE',  #319 ) ;
#108 = AXIS2_PLACEMENT_3D ( 'NONE', #273, #16, #93 ) ;
#109 = DIRECTION ( 'NONE',  ( 0.000000000000000000, 0.000000000000000000, 1.000000000000000000 ) ) ;
#110 = EDGE_LOOP ( 'NONE', ( #289, #83 ) ) ;
#111 = APPROVAL ( #274, 'UNSPECIFIED' ) ;
#112 = CC_DESIGN_PERSON_AND_ORGANIZATION_ASSIGNMENT ( #222, #251, ( #67 ) ) ;
#113 = VERTEX_POINT ( 'NONE', #305 ) ;
#114 = CARTESIAN_POINT ( 'NONE',  ( -3.000000000000000000, 6.123233995736766282E-16, -5.000000000000000000 ) ) ;
#115 = ORIENTED_EDGE ( 'NONE', *, *, #185, .F. ) ;
#116 = EDGE_LOOP ( 'NONE', ( #91, #4, #87, #282 ) ) ;
#117 = DIRECTION ( 'NONE',  ( -1.000000000000000000, -0.000000000000000000, -0.000000000000000000 ) ) ;
#118 = APPROVAL_PERSON_ORGANIZATION ( #173, #111, #155 ) ;
#119 = AXIS2_PLACEMENT_3D ( 'NONE', #245, #42, #128 ) ;
#120 = CALENDAR_DATE ( 2020, 22, 12 ) ;
#121 = FACE_OUTER_BOUND ( 'NONE', #110, .T. ) ;
#122 = DIRECTION ( 'NONE',  ( 0.000000000000000000, 0.000000000000000000, 1.000000000000000000 ) ) ;
#123 = PRODUCT_DEFINITION_SHAPE ( 'NONE', 'NONE',  #67 ) ;
#124 = CARTESIAN_POINT ( 'NONE',  ( -3.000000000000000000, 5.000000000000000000, 0.000000000000000000 ) ) ;
#125 = PERSON_AND_ORGANIZATION_ROLE ( 'creator' ) ;
#126 = EDGE_CURVE ( 'NONE', #265, #168, #240, .T. ) ;
#127 = AXIS2_PLACEMENT_3D ( 'NONE', #61, #241, #9 ) ;
#128 = DIRECTION ( 'NONE',  ( 0.000000000000000000, 0.000000000000000000, 1.000000000000000000 ) ) ;
#129 = AXIS2_PLACEMENT_3D ( 'NONE', #94, #196, #301 ) ;
#130 = APPROVAL_DATE_TIME ( #177, #111 ) ;
#131 = CARTESIAN_POINT ( 'NONE',  ( 1.250000000000000444, 0.000000000000000000, 5.000000000000000000 ) ) ;
#132 = SHAPE_DEFINITION_REPRESENTATION ( #123, #159 ) ;
#133 = EDGE_LOOP ( 'NONE', ( #103, #214, #32, #137 ) ) ;
#134 = CC_DESIGN_PERSON_AND_ORGANIZATION_ASSIGNMENT ( #72, #95, ( #90 ) ) ;
#135 = CARTESIAN_POINT ( 'NONE',  ( -1.614212418857619014, 0.000000000000000000, 5.000000000000000888 ) ) ;
#136 = DIRECTION ( 'NONE',  ( 0.000000000000000000, 0.000000000000000000, 1.000000000000000000 ) ) ;
#137 = ORIENTED_EDGE ( 'NONE', *, *, #85, .F. ) ;
#138 = CARTESIAN_POINT ( 'NONE',  ( -1.614212418857619014, 0.000000000000000000, 0.000000000000000000 ) ) ;
#139 = ORIENTED_EDGE ( 'NONE', *, *, #65, .F. ) ;
#140 = ADVANCED_FACE ( 'NONE', ( #40 ), #244, .F. ) ;
#141 = APPLICATION_PROTOCOL_DEFINITION ( 'international standard', 'config_control_design', 1994, #324 ) ;
#142 = ORIENTED_EDGE ( 'NONE', *, *, #294, .F. ) ;
#143 = AXIS2_PLACEMENT_3D ( 'NONE', #10, #165, #18 ) ;
#144 = AXIS2_PLACEMENT_3D ( 'NONE', #172, #304, #272 ) ;
#145 = ORIENTED_EDGE ( 'NONE', *, *, #182, .F. ) ;
#146 = ORIENTED_EDGE ( 'NONE', *, *, #170, .F. ) ;
#147 = PLANE ( 'NONE',  #127 ) ;
#148 = ORIENTED_EDGE ( 'NONE', *, *, #85, .T. ) ;
#149 = DIRECTION ( 'NONE',  ( -1.000000000000000000, -0.000000000000000000, -0.000000000000000000 ) ) ;
#150 = LINE ( 'NONE', #35, #58 ) ;
#151 = FACE_OUTER_BOUND ( 'NONE', #116, .T. ) ;
#152 = CIRCLE ( 'NONE', #210, 12.69999999999999929 ) ;
#153 = CYLINDRICAL_SURFACE ( 'NONE', #108, 5.000000000000000888 ) ;
#154 = PERSON_AND_ORGANIZATION ( #17, #62 ) ;
#155 = APPROVAL_ROLE ( '' ) ;
#156 = CIRCLE ( 'NONE', #49, 5.000000000000001776 ) ;
#157 = PERSON_AND_ORGANIZATION ( #17, #62 ) ;
#158 = CARTESIAN_POINT ( 'NONE',  ( 3.000000000000000000, 12.69999999999999929, 0.000000000000000000 ) ) ;
#159 = ADVANCED_BREP_SHAPE_REPRESENTATION ( 'Q-OZHWP-R2-10-2020-M', ( #311, #334 ), #326 ) ;
#160 = CARTESIAN_POINT ( 'NONE',  ( -1.614212418857619014, 0.000000000000000000, 0.000000000000000000 ) ) ;
#161 = ORIENTED_EDGE ( 'NONE', *, *, #92, .F. ) ;
#162 = LINE ( 'NONE', #135, #291 ) ;
#163 = APPROVAL_PERSON_ORGANIZATION ( #157, #80, #278 ) ;
#164 = DIRECTION ( 'NONE',  ( -1.000000000000000000, -0.000000000000000000, -0.000000000000000000 ) ) ;
#165 = DIRECTION ( 'NONE',  ( -1.000000000000000000, -0.000000000000000000, -0.000000000000000000 ) ) ;
#166 = EDGE_LOOP ( 'NONE', ( #37, #142, #106, #288 ) ) ;
#167 = ORIENTED_EDGE ( 'NONE', *, *, #290, .T. ) ;
#168 = VERTEX_POINT ( 'NONE', #52 ) ;
#169 = CC_DESIGN_SECURITY_CLASSIFICATION ( #78, ( #12 ) ) ;
#170 = EDGE_CURVE ( 'NONE', #8, #238, #54, .T. ) ;
#171 = VECTOR ( 'NONE', #71, 1000.000000000000000 ) ;
#172 = CARTESIAN_POINT ( 'NONE',  ( -3.000000000000000000, 0.000000000000000000, 0.000000000000000000 ) ) ;
#173 = PERSON_AND_ORGANIZATION ( #17, #62 ) ;
#174 = CARTESIAN_POINT ( 'NONE',  ( -1.614212418857619014, 0.000000000000000000, 0.000000000000000000 ) ) ;
#175 = FACE_BOUND ( 'NONE', #184, .T. ) ;
#176 = CARTESIAN_POINT ( 'NONE',  ( -1.614212418857619014, 1.555301434917138433E-15, -12.69999999999999929 ) ) ;
#177 = DATE_AND_TIME ( #24, #307 ) ;
#178 = DIRECTION ( 'NONE',  ( 0.000000000000000000, 0.000000000000000000, 1.000000000000000000 ) ) ;
#179 = CALENDAR_DATE ( 2020, 22, 12 ) ;
#180 = EDGE_CURVE ( 'NONE', #31, #292, #162, .T. ) ;
#181 = FACE_BOUND ( 'NONE', #270, .T. ) ;
#182 = EDGE_CURVE ( 'NONE', #218, #189, #225, .T. ) ;
#183 = CLOSED_SHELL ( 'NONE', ( #283, #235, #20, #296, #140, #34, #82, #212, #239, #221 ) ) ;
#184 = EDGE_LOOP ( 'NONE', ( #139, #285 ) ) ;
#185 = EDGE_CURVE ( 'NONE', #113, #31, #186, .T. ) ;
#186 = CIRCLE ( 'NONE', #84, 5.000000000000000888 ) ;
#187 = DIRECTION ( 'NONE',  ( -1.000000000000000000, -0.000000000000000000, -0.000000000000000000 ) ) ;
#188 = CC_DESIGN_DATE_AND_TIME_ASSIGNMENT ( #26, #201, ( #78 ) ) ;
#189 = VERTEX_POINT ( 'NONE', #105 ) ;
#190 =( NAMED_UNIT ( * ) SI_UNIT ( $, .STERADIAN. ) SOLID_ANGLE_UNIT ( ) );
#191 = ORIENTED_EDGE ( 'NONE', *, *, #46, .T. ) ;
#192 = ORIENTED_EDGE ( 'NONE', *, *, #320, .T. ) ;
#193 = AXIS2_PLACEMENT_3D ( 'NONE', #138, #234, #178 ) ;
#194 = APPROVAL ( #75, 'UNSPECIFIED' ) ;
#195 = COORDINATED_UNIVERSAL_TIME_OFFSET ( 8, 0, .AHEAD. ) ;
#196 = DIRECTION ( 'NONE',  ( -1.000000000000000000, -0.000000000000000000, -0.000000000000000000 ) ) ;
#197 = COORDINATED_UNIVERSAL_TIME_OFFSET ( 8, 0, .AHEAD. ) ;
#198 = CC_DESIGN_APPROVAL ( #194, ( #12 ) ) ;
#199 = CARTESIAN_POINT ( 'NONE',  ( -1.614212418857619014, 0.000000000000000000, 12.69999999999999929 ) ) ;
#200 = VECTOR ( 'NONE', #331, 1000.000000000000000 ) ;
#201 = DATE_TIME_ROLE ( 'classification_date' ) ;
#202 = LINE ( 'NONE', #199, #200 ) ;
#203 = CARTESIAN_POINT ( 'NONE',  ( -1.614212418857619014, 6.123233995736767268E-16, -5.000000000000000888 ) ) ;
#204 = AXIS2_PLACEMENT_3D ( 'NONE', #15, #117, #136 ) ;
#205 = FACE_OUTER_BOUND ( 'NONE', #133, .T. ) ;
#206 = ORIENTED_EDGE ( 'NONE', *, *, #294, .T. ) ;
#207 = DIRECTION ( 'NONE',  ( -1.000000000000000000, -0.000000000000000000, -0.000000000000000000 ) ) ;
#208 = ORIENTED_EDGE ( 'NONE', *, *, #308, .F. ) ;
#209 = CARTESIAN_POINT ( 'NONE',  ( -1.250000000000000222, 5.000000000000000000, 0.000000000000000000 ) ) ;
#210 = AXIS2_PLACEMENT_3D ( 'NONE', #41, #298, #44 ) ;
#211 = ORIENTED_EDGE ( 'NONE', *, *, #275, .T. ) ;
#212 = ADVANCED_FACE ( 'NONE', ( #30 ), #284, .T. ) ;
#213 = CARTESIAN_POINT ( 'NONE',  ( 3.000000000000000000, 6.123233995736768255E-16, -5.000000000000001776 ) ) ;
#214 = ORIENTED_EDGE ( 'NONE', *, *, #79, .T. ) ;
#215 = EDGE_LOOP ( 'NONE', ( #88, #267, #56, #11 ) ) ;
#216 = LOCAL_TIME ( 17, 11, 8.000000000000000000, #195 ) ;
#217 = AXIS2_PLACEMENT_3D ( 'NONE', #66, #220, #122 ) ;
#218 = VERTEX_POINT ( 'NONE', #3 ) ;
#219 = FACE_OUTER_BOUND ( 'NONE', #2, .T. ) ;
#220 = DIRECTION ( 'NONE',  ( -1.000000000000000000, -0.000000000000000000, -0.000000000000000000 ) ) ;
#221 = ADVANCED_FACE ( 'NONE', ( #27 ), #107, .F. ) ;
#222 = PERSON_AND_ORGANIZATION ( #17, #62 ) ;
#223 = DIRECTION ( 'NONE',  ( 1.000000000000000000, 0.000000000000000000, 0.000000000000000000 ) ) ;
#224 = COORDINATED_UNIVERSAL_TIME_OFFSET ( 8, 0, .AHEAD. ) ;
#225 = CIRCLE ( 'NONE', #236, 12.69999999999999929 ) ;
#226 = DIRECTION ( 'NONE',  ( 1.000000000000000000, 0.000000000000000000, 0.000000000000000000 ) ) ;
#227 = COORDINATED_UNIVERSAL_TIME_OFFSET ( 8, 0, .AHEAD. ) ;
#228 = DIRECTION ( 'NONE',  ( -0.000000000000000000, 0.000000000000000000, 1.000000000000000000 ) ) ;
#229 = CYLINDRICAL_SURFACE ( 'NONE', #246, 5.000000000000000888 ) ;
#230 = EDGE_LOOP ( 'NONE', ( #161, #115 ) ) ;
#231 = APPROVAL_PERSON_ORGANIZATION ( #154, #194, #47 ) ;
#232 = DIRECTION ( 'NONE',  ( -1.000000000000000000, -0.000000000000000000, -0.000000000000000000 ) ) ;
#233 = CARTESIAN_POINT ( 'NONE',  ( 3.000000000000000000, 0.000000000000000000, 0.000000000000000000 ) ) ;
#234 = DIRECTION ( 'NONE',  ( -1.000000000000000000, -0.000000000000000000, -0.000000000000000000 ) ) ;
#235 = ADVANCED_FACE ( 'NONE', ( #53 ), #229, .F. ) ;
#236 = AXIS2_PLACEMENT_3D ( 'NONE', #233, #164, #256 ) ;
#237 = CARTESIAN_POINT ( 'NONE',  ( 3.000000000000000000, 0.000000000000000000, 0.000000000000000000 ) ) ;
#238 = VERTEX_POINT ( 'NONE', #131 ) ;
#239 = ADVANCED_FACE ( 'NONE', ( #25, #181 ), #258, .F. ) ;
#240 = CIRCLE ( 'NONE', #144, 12.69999999999999929 ) ;
#241 = DIRECTION ( 'NONE',  ( -1.000000000000000000, 0.000000000000000000, -0.000000000000000000 ) ) ;
#242 = MECHANICAL_CONTEXT ( 'NONE', #324, 'mechanical' ) ;
#243 = ORIENTED_EDGE ( 'NONE', *, *, #308, .T. ) ;
#244 = CYLINDRICAL_SURFACE ( 'NONE', #204, 5.000000000000000888 ) ;
#245 = CARTESIAN_POINT ( 'NONE',  ( -3.000000000000000000, 0.000000000000000000, 0.000000000000000000 ) ) ;
#246 = AXIS2_PLACEMENT_3D ( 'NONE', #160, #279, #48 ) ;
#247 = DATE_AND_TIME ( #179, #303 ) ;
#248 = DIRECTION ( 'NONE',  ( 0.000000000000000000, 0.000000000000000000, 1.000000000000000000 ) ) ;
#249 = DIRECTION ( 'NONE',  ( 0.000000000000000000, 0.000000000000000000, 1.000000000000000000 ) ) ;
#250 = FACE_OUTER_BOUND ( 'NONE', #60, .T. ) ;
#251 = PERSON_AND_ORGANIZATION_ROLE ( 'creator' ) ;
#252 = DATE_AND_TIME ( #120, #216 ) ;
#253 = EDGE_CURVE ( 'NONE', #113, #310, #100, .T. ) ;
#254 = DIRECTION ( 'NONE',  ( 0.000000000000000000, 0.000000000000000000, -1.000000000000000000 ) ) ;
#255 = CC_DESIGN_DATE_AND_TIME_ASSIGNMENT ( #252, #45, ( #67 ) ) ;
#256 = DIRECTION ( 'NONE',  ( 0.000000000000000000, 0.000000000000000000, 1.000000000000000000 ) ) ;
#257 = VERTEX_POINT ( 'NONE', #77 ) ;
#258 = PLANE ( 'NONE',  #269 ) ;
#259 = AXIS2_PLACEMENT_3D ( 'NONE', #101, #232, #335 ) ;
#260 = CIRCLE ( 'NONE', #119, 5.000000000000000000 ) ;
#261 = DIRECTION ( 'NONE',  ( 1.000000000000000000, 0.000000000000000000, 0.000000000000000000 ) ) ;
#262 = DIRECTION ( 'NONE',  ( 0.000000000000000000, 0.000000000000000000, 1.000000000000000000 ) ) ;
#263 = LOCAL_TIME ( 17, 11, 8.000000000000000000, #224 ) ;
#264 = DIRECTION ( 'NONE',  ( -1.000000000000000000, -0.000000000000000000, -0.000000000000000000 ) ) ;
#265 = VERTEX_POINT ( 'NONE', #333 ) ;
#266 =( LENGTH_UNIT ( ) NAMED_UNIT ( * ) SI_UNIT ( .MILLI., .METRE. ) );
#267 = ORIENTED_EDGE ( 'NONE', *, *, #253, .T. ) ;
#268 = ORIENTED_EDGE ( 'NONE', *, *, #126, .F. ) ;
#269 = AXIS2_PLACEMENT_3D ( 'NONE', #158, #28, #228 ) ;
#270 = EDGE_LOOP ( 'NONE', ( #206, #243 ) ) ;
#271 = CIRCLE ( 'NONE', #129, 5.000000000000000000 ) ;
#272 = DIRECTION ( 'NONE',  ( 0.000000000000000000, 0.000000000000000000, 1.000000000000000000 ) ) ;
#273 = CARTESIAN_POINT ( 'NONE',  ( -1.614212418857619014, 0.000000000000000000, 0.000000000000000000 ) ) ;
#274 = APPROVAL_STATUS ( 'not_yet_approved' ) ;
#275 = EDGE_CURVE ( 'NONE', #257, #238, #29, .T. ) ;
#276 = CC_DESIGN_APPROVAL ( #111, ( #78 ) ) ;
#277 = APPLICATION_PROTOCOL_DEFINITION ( 'international standard', 'config_control_design', 1994, #14 ) ;
#278 = APPROVAL_ROLE ( '' ) ;
#279 = DIRECTION ( 'NONE',  ( -1.000000000000000000, -0.000000000000000000, -0.000000000000000000 ) ) ;
#280 = PERSON_AND_ORGANIZATION_ROLE ( 'design_supplier' ) ;
#281 = AXIS2_PLACEMENT_3D ( 'NONE', #293, #264, #248 ) ;
#282 = ORIENTED_EDGE ( 'NONE', *, *, #65, .T. ) ;
#283 = ADVANCED_FACE ( 'NONE', ( #205 ), #309, .T. ) ;
#284 = CYLINDRICAL_SURFACE ( 'NONE', #193, 12.69999999999999929 ) ;
#285 = ORIENTED_EDGE ( 'NONE', *, *, #23, .F. ) ;
#286 = PRODUCT_RELATED_PRODUCT_CATEGORY ( 'detail', '', ( #90 ) ) ;
#287 = ORIENTED_EDGE ( 'NONE', *, *, #79, .F. ) ;
#288 = ORIENTED_EDGE ( 'NONE', *, *, #59, .T. ) ;
#289 = ORIENTED_EDGE ( 'NONE', *, *, #59, .F. ) ;
#290 = EDGE_CURVE ( 'NONE', #318, #257, #150, .T. ) ;
#291 = VECTOR ( 'NONE', #187, 1000.000000000000000 ) ;
#292 = VERTEX_POINT ( 'NONE', #315 ) ;
#293 = CARTESIAN_POINT ( 'NONE',  ( 3.000000000000000000, 0.000000000000000000, 0.000000000000000000 ) ) ;
#294 = EDGE_CURVE ( 'NONE', #8, #318, #38, .T. ) ;
#295 = CC_DESIGN_PERSON_AND_ORGANIZATION_ASSIGNMENT ( #68, #64, ( #78 ) ) ;
#296 = ADVANCED_FACE ( 'NONE', ( #121 ), #147, .F. ) ;
#297 = EDGE_LOOP ( 'NONE', ( #145, #13 ) ) ;
#298 = DIRECTION ( 'NONE',  ( -1.000000000000000000, -0.000000000000000000, -0.000000000000000000 ) ) ;
#299 = PERSON_AND_ORGANIZATION ( #17, #62 ) ;
#300 = DIRECTION ( 'NONE',  ( 1.000000000000000000, 0.000000000000000000, 0.000000000000000000 ) ) ;
#301 = DIRECTION ( 'NONE',  ( 0.000000000000000000, 0.000000000000000000, 1.000000000000000000 ) ) ;
#302 = CC_DESIGN_PERSON_AND_ORGANIZATION_ASSIGNMENT ( #50, #125, ( #12 ) ) ;
#303 = LOCAL_TIME ( 17, 11, 8.000000000000000000, #328 ) ;
#304 = DIRECTION ( 'NONE',  ( -1.000000000000000000, -0.000000000000000000, -0.000000000000000000 ) ) ;
#305 = CARTESIAN_POINT ( 'NONE',  ( -1.250000000000000222, 6.123233995736767268E-16, -5.000000000000000888 ) ) ;
#306 = UNCERTAINTY_MEASURE_WITH_UNIT (LENGTH_MEASURE( 1.000000000000000082E-05 ), #266, 'distance_accuracy_value', 'NONE');
#307 = LOCAL_TIME ( 17, 11, 8.000000000000000000, #227 ) ;
#308 = EDGE_CURVE ( 'NONE', #318, #8, #156, .T. ) ;
#309 = CYLINDRICAL_SURFACE ( 'NONE', #329, 12.69999999999999929 ) ;
#310 = VERTEX_POINT ( 'NONE', #114 ) ;
#311 = MANIFOLD_SOLID_BREP ( 'Ðý×', #183 ) ;
#312 = DIRECTION ( 'NONE',  ( -1.000000000000000000, -0.000000000000000000, -0.000000000000000000 ) ) ;
#313 = DIRECTION ( 'NONE',  ( -1.000000000000000000, -0.000000000000000000, -0.000000000000000000 ) ) ;
#314 = CC_DESIGN_PERSON_AND_ORGANIZATION_ASSIGNMENT ( #299, #280, ( #12 ) ) ;
#315 = CARTESIAN_POINT ( 'NONE',  ( -3.000000000000000000, 0.000000000000000000, 5.000000000000000000 ) ) ;
#316 = CIRCLE ( 'NONE', #7, 5.000000000000000888 ) ;
#317 = CARTESIAN_POINT ( 'NONE',  ( 0.000000000000000000, 0.000000000000000000, 0.000000000000000000 ) ) ;
#318 = VERTEX_POINT ( 'NONE', #213 ) ;
#319 = AXIS2_PLACEMENT_3D ( 'NONE', #209, #81, #76 ) ;
#320 = EDGE_CURVE ( 'NONE', #168, #265, #102, .T. ) ;
#321 = AXIS2_PLACEMENT_3D ( 'NONE', #174, #149, #249 ) ;
#322 = DIRECTION ( 'NONE',  ( -1.000000000000000000, -0.000000000000000000, -0.000000000000000000 ) ) ;
#323 = CARTESIAN_POINT ( 'NONE',  ( 3.000000000000000000, 0.000000000000000000, 5.000000000000001776 ) ) ;
#324 = APPLICATION_CONTEXT ( 'configuration controlled 3d designs of mechanical parts and assemblies' ) ;
#325 = CYLINDRICAL_SURFACE ( 'NONE', #321, 5.000000000000000888 ) ;
#326 =( GEOMETRIC_REPRESENTATION_CONTEXT ( 3 ) GLOBAL_UNCERTAINTY_ASSIGNED_CONTEXT ( ( #306 ) ) GLOBAL_UNIT_ASSIGNED_CONTEXT ( ( #266, #86, #190 ) ) REPRESENTATION_CONTEXT ( 'NONE', 'WORKASPACE' ) );
#327 = CARTESIAN_POINT ( 'NONE',  ( -1.250000000000000222, 0.000000000000000000, 0.000000000000000000 ) ) ;
#328 = COORDINATED_UNIVERSAL_TIME_OFFSET ( 8, 0, .AHEAD. ) ;
#329 = AXIS2_PLACEMENT_3D ( 'NONE', #104, #207, #262 ) ;
#330 = SECURITY_CLASSIFICATION_LEVEL ( 'unclassified' ) ;
#331 = DIRECTION ( 'NONE',  ( -1.000000000000000000, -0.000000000000000000, -0.000000000000000000 ) ) ;
#332 = APPROVAL_DATE_TIME ( #22, #194 ) ;
#333 = CARTESIAN_POINT ( 'NONE',  ( -3.000000000000000000, 1.555301434917138433E-15, -12.69999999999999929 ) ) ;
#334 = AXIS2_PLACEMENT_3D ( 'NONE', #317, #57, #300 ) ;
#335 = DIRECTION ( 'NONE',  ( 0.000000000000000000, 0.000000000000000000, 1.000000000000000000 ) ) ;
ENDSEC;
END-ISO-10303-21;
